ISO-10303-21;
HEADER;
/* Generated by software containing ST-Developer
 * from STEP Tools, Inc. (www.steptools.com) 
 */

FILE_DESCRIPTION(
/* description */ ('Nutenstein schwer mit Federkugel M5, Nut 8'),
/* implementation_level */ '2;1');

FILE_NAME(
/* name */ 
'T:\\Produktinformationen\\MT\\I40\\3D-Files I40\\Nutenstein 18x6,8\\2
82200300 Nutenstein schwer mit Federkugel M5 N8.stp',
/* time_stamp */ '2020-07-20T10:28:22+02:00',
/* author */ ('wheldmann'),
/* organization */ (''),
/* preprocessor_version */ 'ST-DEVELOPER v17.2',
/* originating_system */ 'Autodesk Inventor 2019',
/* authorisation */ ' ');

FILE_SCHEMA (('AUTOMOTIVE_DESIGN { 1 0 10303 214 3 1 1 }'));
ENDSEC;

DATA;
#10=MECHANICAL_DESIGN_GEOMETRIC_PRESENTATION_REPRESENTATION('',(#26,#27),
#587);
#11=SHAPE_REPRESENTATION_RELATIONSHIP('SRR','None',#594,#12);
#12=ADVANCED_BREP_SHAPE_REPRESENTATION('',(#13),#586);
#13=MANIFOLD_SOLID_BREP('Volumenk\X\F6rper2',#317);
#14=FACE_BOUND('',#63,.T.);
#15=FACE_BOUND('',#65,.T.);
#16=PLANE('',#349);
#17=PLANE('',#356);
#18=PLANE('',#365);
#19=PLANE('',#367);
#20=PLANE('',#369);
#21=PLANE('',#370);
#22=PLANE('',#373);
#23=B_SPLINE_CURVE_WITH_KNOTS('',3,(#492,#493,#494,#495,#496,#497,#498,
#499,#500,#501),.UNSPECIFIED.,.F.,.F.,(4,2,2,2,4),(0.651665114752311,0.66460506115557,
0.751026744474055,0.83744842779254,0.850388374195799),.UNSPECIFIED.);
#24=B_SPLINE_CURVE_WITH_KNOTS('',3,(#505,#506,#507,#508,#509,#510,#511,
#512,#513,#514,#515),.UNSPECIFIED.,.F.,.F.,(4,2,3,2,4),(1.40269185922637,
1.41563180562962,1.50205348894811,1.58847517226659,1.60141511866985),
 .UNSPECIFIED.);
#25=SPHERICAL_SURFACE('',#344,2.5);
#26=STYLED_ITEM('',(#604),#303);
#27=STYLED_ITEM('',(#603),#13);
#28=CYLINDRICAL_SURFACE('',#342,2.067);
#29=CYLINDRICAL_SURFACE('',#363,0.5);
#30=CYLINDRICAL_SURFACE('',#364,3.5);
#31=CYLINDRICAL_SURFACE('',#366,3.5);
#32=CYLINDRICAL_SURFACE('',#368,3.5);
#33=CYLINDRICAL_SURFACE('',#371,0.5);
#34=CYLINDRICAL_SURFACE('',#372,3.5);
#35=FACE_OUTER_BOUND('',#51,.T.);
#36=FACE_OUTER_BOUND('',#52,.T.);
#37=FACE_OUTER_BOUND('',#53,.T.);
#38=FACE_OUTER_BOUND('',#54,.T.);
#39=FACE_OUTER_BOUND('',#55,.T.);
#40=FACE_OUTER_BOUND('',#56,.T.);
#41=FACE_OUTER_BOUND('',#57,.T.);
#42=FACE_OUTER_BOUND('',#58,.T.);
#43=FACE_OUTER_BOUND('',#59,.T.);
#44=FACE_OUTER_BOUND('',#60,.T.);
#45=FACE_OUTER_BOUND('',#61,.T.);
#46=FACE_OUTER_BOUND('',#62,.T.);
#47=FACE_OUTER_BOUND('',#64,.T.);
#48=FACE_OUTER_BOUND('',#66,.T.);
#49=FACE_OUTER_BOUND('',#67,.T.);
#50=FACE_OUTER_BOUND('',#68,.T.);
#51=EDGE_LOOP('',(#210,#211,#212,#213,#214,#215));
#52=EDGE_LOOP('',(#216,#217,#218,#219,#220));
#53=EDGE_LOOP('',(#221,#222,#223,#224,#225,#226,#227));
#54=EDGE_LOOP('',(#228,#229,#230,#231,#232,#233,#234,#235,#236,#237));
#55=EDGE_LOOP('',(#238,#239,#240,#241,#242,#243,#244,#245,#246,#247));
#56=EDGE_LOOP('',(#248,#249,#250,#251));
#57=EDGE_LOOP('',(#252,#253,#254,#255));
#58=EDGE_LOOP('',(#256,#257,#258,#259));
#59=EDGE_LOOP('',(#260,#261,#262,#263,#264,#265));
#60=EDGE_LOOP('',(#266,#267,#268,#269,#270));
#61=EDGE_LOOP('',(#271,#272,#273,#274,#275,#276));
#62=EDGE_LOOP('',(#277,#278,#279,#280));
#63=EDGE_LOOP('',(#281));
#64=EDGE_LOOP('',(#282,#283,#284,#285));
#65=EDGE_LOOP('',(#286,#287));
#66=EDGE_LOOP('',(#288,#289,#290,#291));
#67=EDGE_LOOP('',(#292,#293,#294,#295));
#68=EDGE_LOOP('',(#296,#297,#298,#299));
#69=LINE('',#479,#91);
#70=LINE('',#485,#92);
#71=LINE('',#522,#93);
#72=LINE('',#528,#94);
#73=LINE('',#532,#95);
#74=LINE('',#536,#96);
#75=LINE('',#543,#97);
#76=LINE('',#549,#98);
#77=LINE('',#553,#99);
#78=LINE('',#557,#100);
#79=LINE('',#562,#101);
#80=LINE('',#563,#102);
#81=LINE('',#565,#103);
#82=LINE('',#567,#104);
#83=LINE('',#569,#105);
#84=LINE('',#570,#106);
#85=LINE('',#572,#107);
#86=LINE('',#574,#108);
#87=LINE('',#575,#109);
#88=LINE('',#578,#110);
#89=LINE('',#580,#111);
#90=LINE('',#582,#112);
#91=VECTOR('',#382,2.2835);
#92=VECTOR('',#389,2.067);
#93=VECTOR('',#404,1000.);
#94=VECTOR('',#409,1000.);
#95=VECTOR('',#412,1000.);
#96=VECTOR('',#415,1000.);
#97=VECTOR('',#422,1000.);
#98=VECTOR('',#427,1000.);
#99=VECTOR('',#430,1000.);
#100=VECTOR('',#433,1000.);
#101=VECTOR('',#440,1000.);
#102=VECTOR('',#441,1000.);
#103=VECTOR('',#444,1000.);
#104=VECTOR('',#447,1000.);
#105=VECTOR('',#450,1000.);
#106=VECTOR('',#451,1000.);
#107=VECTOR('',#454,1000.);
#108=VECTOR('',#457,1000.);
#109=VECTOR('',#458,1000.);
#110=VECTOR('',#463,1000.);
#111=VECTOR('',#466,1000.);
#112=VECTOR('',#469,1000.);
#113=CIRCLE('',#338,2.5);
#114=CIRCLE('',#339,2.5);
#115=CIRCLE('',#340,2.067);
#116=CIRCLE('',#341,2.067);
#117=CIRCLE('',#343,2.067);
#118=CIRCLE('',#345,2.4);
#119=CIRCLE('',#346,2.4);
#120=CIRCLE('',#347,2.4);
#121=CIRCLE('',#348,2.5);
#122=CIRCLE('',#350,0.5);
#123=CIRCLE('',#351,3.5);
#124=CIRCLE('',#352,3.5);
#125=CIRCLE('',#353,3.5);
#126=CIRCLE('',#354,3.5);
#127=CIRCLE('',#355,0.5);
#128=CIRCLE('',#357,0.5);
#129=CIRCLE('',#358,3.5);
#130=CIRCLE('',#359,3.5);
#131=CIRCLE('',#360,3.5);
#132=CIRCLE('',#361,3.5);
#133=CIRCLE('',#362,0.5);
#134=VERTEX_POINT('',#474);
#135=VERTEX_POINT('',#475);
#136=VERTEX_POINT('',#478);
#137=VERTEX_POINT('',#480);
#138=VERTEX_POINT('',#484);
#139=VERTEX_POINT('',#488);
#140=VERTEX_POINT('',#489);
#141=VERTEX_POINT('',#491);
#142=VERTEX_POINT('',#502);
#143=VERTEX_POINT('',#504);
#144=VERTEX_POINT('',#517);
#145=VERTEX_POINT('',#520);
#146=VERTEX_POINT('',#521);
#147=VERTEX_POINT('',#523);
#148=VERTEX_POINT('',#525);
#149=VERTEX_POINT('',#527);
#150=VERTEX_POINT('',#529);
#151=VERTEX_POINT('',#531);
#152=VERTEX_POINT('',#533);
#153=VERTEX_POINT('',#535);
#154=VERTEX_POINT('',#537);
#155=VERTEX_POINT('',#541);
#156=VERTEX_POINT('',#542);
#157=VERTEX_POINT('',#544);
#158=VERTEX_POINT('',#546);
#159=VERTEX_POINT('',#548);
#160=VERTEX_POINT('',#550);
#161=VERTEX_POINT('',#552);
#162=VERTEX_POINT('',#554);
#163=VERTEX_POINT('',#556);
#164=VERTEX_POINT('',#558);
#165=EDGE_CURVE('',#134,#135,#113,.T.);
#166=EDGE_CURVE('',#135,#134,#114,.T.);
#167=EDGE_CURVE('',#135,#136,#69,.T.);
#168=EDGE_CURVE('',#137,#136,#115,.T.);
#169=EDGE_CURVE('',#136,#137,#116,.T.);
#170=EDGE_CURVE('',#136,#138,#70,.T.);
#171=EDGE_CURVE('',#138,#138,#117,.T.);
#172=EDGE_CURVE('',#139,#140,#118,.T.);
#173=EDGE_CURVE('',#141,#139,#23,.T.);
#174=EDGE_CURVE('',#142,#141,#119,.T.);
#175=EDGE_CURVE('',#143,#142,#24,.T.);
#176=EDGE_CURVE('',#140,#143,#120,.T.);
#177=EDGE_CURVE('',#140,#144,#121,.T.);
#178=EDGE_CURVE('',#145,#146,#71,.T.);
#179=EDGE_CURVE('',#146,#147,#122,.T.);
#180=EDGE_CURVE('',#147,#148,#123,.T.);
#181=EDGE_CURVE('',#148,#149,#72,.T.);
#182=EDGE_CURVE('',#149,#150,#124,.T.);
#183=EDGE_CURVE('',#150,#151,#73,.T.);
#184=EDGE_CURVE('',#151,#152,#125,.T.);
#185=EDGE_CURVE('',#152,#153,#74,.T.);
#186=EDGE_CURVE('',#153,#154,#126,.T.);
#187=EDGE_CURVE('',#154,#145,#127,.T.);
#188=EDGE_CURVE('',#155,#156,#75,.T.);
#189=EDGE_CURVE('',#157,#155,#128,.T.);
#190=EDGE_CURVE('',#158,#157,#129,.T.);
#191=EDGE_CURVE('',#159,#158,#76,.T.);
#192=EDGE_CURVE('',#160,#159,#130,.T.);
#193=EDGE_CURVE('',#161,#160,#77,.T.);
#194=EDGE_CURVE('',#162,#161,#131,.T.);
#195=EDGE_CURVE('',#163,#162,#78,.T.);
#196=EDGE_CURVE('',#164,#163,#132,.T.);
#197=EDGE_CURVE('',#156,#164,#133,.T.);
#198=EDGE_CURVE('',#145,#155,#79,.T.);
#199=EDGE_CURVE('',#154,#157,#80,.T.);
#200=EDGE_CURVE('',#153,#158,#81,.T.);
#201=EDGE_CURVE('',#152,#159,#82,.T.);
#202=EDGE_CURVE('',#151,#143,#83,.T.);
#203=EDGE_CURVE('',#142,#160,#84,.T.);
#204=EDGE_CURVE('',#150,#139,#85,.T.);
#205=EDGE_CURVE('',#141,#161,#86,.T.);
#206=EDGE_CURVE('',#149,#162,#87,.T.);
#207=EDGE_CURVE('',#146,#156,#88,.T.);
#208=EDGE_CURVE('',#147,#164,#89,.T.);
#209=EDGE_CURVE('',#148,#163,#90,.T.);
#210=ORIENTED_EDGE('',*,*,#165,.F.);
#211=ORIENTED_EDGE('',*,*,#166,.F.);
#212=ORIENTED_EDGE('',*,*,#167,.T.);
#213=ORIENTED_EDGE('',*,*,#168,.F.);
#214=ORIENTED_EDGE('',*,*,#169,.F.);
#215=ORIENTED_EDGE('',*,*,#167,.F.);
#216=ORIENTED_EDGE('',*,*,#168,.T.);
#217=ORIENTED_EDGE('',*,*,#170,.T.);
#218=ORIENTED_EDGE('',*,*,#171,.F.);
#219=ORIENTED_EDGE('',*,*,#170,.F.);
#220=ORIENTED_EDGE('',*,*,#169,.T.);
#221=ORIENTED_EDGE('',*,*,#172,.F.);
#222=ORIENTED_EDGE('',*,*,#173,.F.);
#223=ORIENTED_EDGE('',*,*,#174,.F.);
#224=ORIENTED_EDGE('',*,*,#175,.F.);
#225=ORIENTED_EDGE('',*,*,#176,.F.);
#226=ORIENTED_EDGE('',*,*,#177,.T.);
#227=ORIENTED_EDGE('',*,*,#177,.F.);
#228=ORIENTED_EDGE('',*,*,#178,.T.);
#229=ORIENTED_EDGE('',*,*,#179,.T.);
#230=ORIENTED_EDGE('',*,*,#180,.T.);
#231=ORIENTED_EDGE('',*,*,#181,.T.);
#232=ORIENTED_EDGE('',*,*,#182,.T.);
#233=ORIENTED_EDGE('',*,*,#183,.T.);
#234=ORIENTED_EDGE('',*,*,#184,.T.);
#235=ORIENTED_EDGE('',*,*,#185,.T.);
#236=ORIENTED_EDGE('',*,*,#186,.T.);
#237=ORIENTED_EDGE('',*,*,#187,.T.);
#238=ORIENTED_EDGE('',*,*,#188,.F.);
#239=ORIENTED_EDGE('',*,*,#189,.F.);
#240=ORIENTED_EDGE('',*,*,#190,.F.);
#241=ORIENTED_EDGE('',*,*,#191,.F.);
#242=ORIENTED_EDGE('',*,*,#192,.F.);
#243=ORIENTED_EDGE('',*,*,#193,.F.);
#244=ORIENTED_EDGE('',*,*,#194,.F.);
#245=ORIENTED_EDGE('',*,*,#195,.F.);
#246=ORIENTED_EDGE('',*,*,#196,.F.);
#247=ORIENTED_EDGE('',*,*,#197,.F.);
#248=ORIENTED_EDGE('',*,*,#189,.T.);
#249=ORIENTED_EDGE('',*,*,#198,.F.);
#250=ORIENTED_EDGE('',*,*,#187,.F.);
#251=ORIENTED_EDGE('',*,*,#199,.T.);
#252=ORIENTED_EDGE('',*,*,#190,.T.);
#253=ORIENTED_EDGE('',*,*,#199,.F.);
#254=ORIENTED_EDGE('',*,*,#186,.F.);
#255=ORIENTED_EDGE('',*,*,#200,.T.);
#256=ORIENTED_EDGE('',*,*,#191,.T.);
#257=ORIENTED_EDGE('',*,*,#200,.F.);
#258=ORIENTED_EDGE('',*,*,#185,.F.);
#259=ORIENTED_EDGE('',*,*,#201,.T.);
#260=ORIENTED_EDGE('',*,*,#202,.T.);
#261=ORIENTED_EDGE('',*,*,#175,.T.);
#262=ORIENTED_EDGE('',*,*,#203,.T.);
#263=ORIENTED_EDGE('',*,*,#192,.T.);
#264=ORIENTED_EDGE('',*,*,#201,.F.);
#265=ORIENTED_EDGE('',*,*,#184,.F.);
#266=ORIENTED_EDGE('',*,*,#172,.T.);
#267=ORIENTED_EDGE('',*,*,#176,.T.);
#268=ORIENTED_EDGE('',*,*,#202,.F.);
#269=ORIENTED_EDGE('',*,*,#183,.F.);
#270=ORIENTED_EDGE('',*,*,#204,.T.);
#271=ORIENTED_EDGE('',*,*,#205,.F.);
#272=ORIENTED_EDGE('',*,*,#173,.T.);
#273=ORIENTED_EDGE('',*,*,#204,.F.);
#274=ORIENTED_EDGE('',*,*,#182,.F.);
#275=ORIENTED_EDGE('',*,*,#206,.T.);
#276=ORIENTED_EDGE('',*,*,#194,.T.);
#277=ORIENTED_EDGE('',*,*,#203,.F.);
#278=ORIENTED_EDGE('',*,*,#174,.T.);
#279=ORIENTED_EDGE('',*,*,#205,.T.);
#280=ORIENTED_EDGE('',*,*,#193,.T.);
#281=ORIENTED_EDGE('',*,*,#171,.T.);
#282=ORIENTED_EDGE('',*,*,#188,.T.);
#283=ORIENTED_EDGE('',*,*,#207,.F.);
#284=ORIENTED_EDGE('',*,*,#178,.F.);
#285=ORIENTED_EDGE('',*,*,#198,.T.);
#286=ORIENTED_EDGE('',*,*,#165,.T.);
#287=ORIENTED_EDGE('',*,*,#166,.T.);
#288=ORIENTED_EDGE('',*,*,#197,.T.);
#289=ORIENTED_EDGE('',*,*,#208,.F.);
#290=ORIENTED_EDGE('',*,*,#179,.F.);
#291=ORIENTED_EDGE('',*,*,#207,.T.);
#292=ORIENTED_EDGE('',*,*,#196,.T.);
#293=ORIENTED_EDGE('',*,*,#209,.F.);
#294=ORIENTED_EDGE('',*,*,#180,.F.);
#295=ORIENTED_EDGE('',*,*,#208,.T.);
#296=ORIENTED_EDGE('',*,*,#195,.T.);
#297=ORIENTED_EDGE('',*,*,#206,.F.);
#298=ORIENTED_EDGE('',*,*,#181,.F.);
#299=ORIENTED_EDGE('',*,*,#209,.T.);
#300=CONICAL_SURFACE('',#337,2.2835,0.785398163397448);
#301=ADVANCED_FACE('',(#35),#300,.F.);
#302=ADVANCED_FACE('',(#36),#28,.F.);
#303=ADVANCED_FACE('',(#37),#25,.T.);
#304=ADVANCED_FACE('',(#38),#16,.T.);
#305=ADVANCED_FACE('',(#39),#17,.F.);
#306=ADVANCED_FACE('',(#40),#29,.T.);
#307=ADVANCED_FACE('',(#41),#30,.T.);
#308=ADVANCED_FACE('',(#42),#18,.F.);
#309=ADVANCED_FACE('',(#43),#31,.T.);
#310=ADVANCED_FACE('',(#44),#19,.F.);
#311=ADVANCED_FACE('',(#45),#32,.T.);
#312=ADVANCED_FACE('',(#46,#14),#20,.F.);
#313=ADVANCED_FACE('',(#47,#15),#21,.F.);
#314=ADVANCED_FACE('',(#48),#33,.T.);
#315=ADVANCED_FACE('',(#49),#34,.T.);
#316=ADVANCED_FACE('',(#50),#22,.F.);
#317=CLOSED_SHELL('',(#301,#302,#303,#304,#305,#306,#307,#308,#309,#310,
#311,#312,#313,#314,#315,#316));
#318=DERIVED_UNIT_ELEMENT(#320,1.);
#319=DERIVED_UNIT_ELEMENT(#589,3.);
#320=(
MASS_UNIT()
NAMED_UNIT(*)
SI_UNIT($,.GRAM.)
);
#321=DERIVED_UNIT((#318,#319));
#322=MEASURE_REPRESENTATION_ITEM('density measure',
POSITIVE_RATIO_MEASURE(7.85),#321);
#323=PROPERTY_DEFINITION_REPRESENTATION(#328,#325);
#324=PROPERTY_DEFINITION_REPRESENTATION(#329,#326);
#325=REPRESENTATION('material name',(#327),#586);
#326=REPRESENTATION('density',(#322),#586);
#327=DESCRIPTIVE_REPRESENTATION_ITEM('Stahl','Stahl');
#328=PROPERTY_DEFINITION('material property','material name',#596);
#329=PROPERTY_DEFINITION('material property','density of part',#596);
#330=DATE_TIME_ROLE('creation_date');
#331=APPLIED_DATE_AND_TIME_ASSIGNMENT(#332,#330,(#596));
#332=DATE_AND_TIME(#333,#334);
#333=CALENDAR_DATE(2020,20,7);
#334=LOCAL_TIME(9,41,48.,#335);
#335=COORDINATED_UNIVERSAL_TIME_OFFSET(0,0,.BEHIND.);
#336=AXIS2_PLACEMENT_3D('placement',#472,#374,#375);
#337=AXIS2_PLACEMENT_3D('',#473,#376,#377);
#338=AXIS2_PLACEMENT_3D('',#476,#378,#379);
#339=AXIS2_PLACEMENT_3D('',#477,#380,#381);
#340=AXIS2_PLACEMENT_3D('',#481,#383,#384);
#341=AXIS2_PLACEMENT_3D('',#482,#385,#386);
#342=AXIS2_PLACEMENT_3D('',#483,#387,#388);
#343=AXIS2_PLACEMENT_3D('',#486,#390,#391);
#344=AXIS2_PLACEMENT_3D('',#487,#392,#393);
#345=AXIS2_PLACEMENT_3D('',#490,#394,#395);
#346=AXIS2_PLACEMENT_3D('',#503,#396,#397);
#347=AXIS2_PLACEMENT_3D('',#516,#398,#399);
#348=AXIS2_PLACEMENT_3D('',#518,#400,#401);
#349=AXIS2_PLACEMENT_3D('',#519,#402,#403);
#350=AXIS2_PLACEMENT_3D('',#524,#405,#406);
#351=AXIS2_PLACEMENT_3D('',#526,#407,#408);
#352=AXIS2_PLACEMENT_3D('',#530,#410,#411);
#353=AXIS2_PLACEMENT_3D('',#534,#413,#414);
#354=AXIS2_PLACEMENT_3D('',#538,#416,#417);
#355=AXIS2_PLACEMENT_3D('',#539,#418,#419);
#356=AXIS2_PLACEMENT_3D('',#540,#420,#421);
#357=AXIS2_PLACEMENT_3D('',#545,#423,#424);
#358=AXIS2_PLACEMENT_3D('',#547,#425,#426);
#359=AXIS2_PLACEMENT_3D('',#551,#428,#429);
#360=AXIS2_PLACEMENT_3D('',#555,#431,#432);
#361=AXIS2_PLACEMENT_3D('',#559,#434,#435);
#362=AXIS2_PLACEMENT_3D('',#560,#436,#437);
#363=AXIS2_PLACEMENT_3D('',#561,#438,#439);
#364=AXIS2_PLACEMENT_3D('',#564,#442,#443);
#365=AXIS2_PLACEMENT_3D('',#566,#445,#446);
#366=AXIS2_PLACEMENT_3D('',#568,#448,#449);
#367=AXIS2_PLACEMENT_3D('',#571,#452,#453);
#368=AXIS2_PLACEMENT_3D('',#573,#455,#456);
#369=AXIS2_PLACEMENT_3D('',#576,#459,#460);
#370=AXIS2_PLACEMENT_3D('',#577,#461,#462);
#371=AXIS2_PLACEMENT_3D('',#579,#464,#465);
#372=AXIS2_PLACEMENT_3D('',#581,#467,#468);
#373=AXIS2_PLACEMENT_3D('',#583,#470,#471);
#374=DIRECTION('axis',(0.,0.,1.));
#375=DIRECTION('refdir',(1.,0.,0.));
#376=DIRECTION('center_axis',(0.,0.,1.));
#377=DIRECTION('ref_axis',(1.,0.,0.));
#378=DIRECTION('center_axis',(0.,0.,-1.));
#379=DIRECTION('ref_axis',(1.,0.,0.));
#380=DIRECTION('center_axis',(0.,0.,-1.));
#381=DIRECTION('ref_axis',(1.,0.,0.));
#382=DIRECTION('',(0.707106781186548,8.65956056235493E-17,-0.707106781186548));
#383=DIRECTION('center_axis',(0.,0.,1.));
#384=DIRECTION('ref_axis',(1.,0.,0.));
#385=DIRECTION('center_axis',(0.,0.,1.));
#386=DIRECTION('ref_axis',(1.,0.,0.));
#387=DIRECTION('center_axis',(0.,0.,1.));
#388=DIRECTION('ref_axis',(1.,0.,0.));
#389=DIRECTION('',(0.,0.,-1.));
#390=DIRECTION('center_axis',(0.,0.,1.));
#391=DIRECTION('ref_axis',(1.,0.,0.));
#392=DIRECTION('center_axis',(0.,0.,1.));
#393=DIRECTION('ref_axis',(2.22044604925031E-16,-1.,0.));
#394=DIRECTION('center_axis',(0.,0.,1.));
#395=DIRECTION('ref_axis',(-2.22044604925031E-16,1.,0.));
#396=DIRECTION('center_axis',(0.,0.,1.));
#397=DIRECTION('ref_axis',(-2.22044604925031E-16,1.,0.));
#398=DIRECTION('center_axis',(0.,0.,1.));
#399=DIRECTION('ref_axis',(-2.22044604925031E-16,1.,0.));
#400=DIRECTION('center_axis',(-1.,-3.44509284839767E-16,0.));
#401=DIRECTION('ref_axis',(-3.44509284839767E-16,1.,0.));
#402=DIRECTION('center_axis',(-2.22044604925031E-16,1.,0.));
#403=DIRECTION('ref_axis',(0.,0.,-1.));
#404=DIRECTION('',(1.,2.22044604925031E-16,0.));
#405=DIRECTION('center_axis',(-2.22044604925031E-16,1.,0.));
#406=DIRECTION('ref_axis',(0.,0.,-1.));
#407=DIRECTION('center_axis',(-2.22044604925031E-16,1.,0.));
#408=DIRECTION('ref_axis',(0.,0.,-1.));
#409=DIRECTION('',(-0.750359462031804,-1.66613270298611E-16,-0.661030012737199));
#410=DIRECTION('center_axis',(-2.22044604925031E-16,1.,0.));
#411=DIRECTION('ref_axis',(0.,0.,-1.));
#412=DIRECTION('',(-1.,-2.22044604925031E-16,0.));
#413=DIRECTION('center_axis',(-2.22044604925031E-16,1.,0.));
#414=DIRECTION('ref_axis',(0.,0.,-1.));
#415=DIRECTION('',(-0.750359462031804,-1.66613270298611E-16,0.661030012737199));
#416=DIRECTION('center_axis',(-2.22044604925031E-16,1.,0.));
#417=DIRECTION('ref_axis',(0.,0.,-1.));
#418=DIRECTION('center_axis',(-2.22044604925031E-16,1.,0.));
#419=DIRECTION('ref_axis',(0.,0.,-1.));
#420=DIRECTION('center_axis',(-2.22044604925031E-16,1.,0.));
#421=DIRECTION('ref_axis',(0.,0.,-1.));
#422=DIRECTION('',(1.,2.22044604925031E-16,0.));
#423=DIRECTION('center_axis',(-2.22044604925031E-16,1.,0.));
#424=DIRECTION('ref_axis',(0.,0.,-1.));
#425=DIRECTION('center_axis',(-2.22044604925031E-16,1.,0.));
#426=DIRECTION('ref_axis',(0.,0.,-1.));
#427=DIRECTION('',(-0.750359462031804,-1.66613270298611E-16,0.661030012737199));
#428=DIRECTION('center_axis',(-2.22044604925031E-16,1.,0.));
#429=DIRECTION('ref_axis',(0.,0.,-1.));
#430=DIRECTION('',(-1.,-2.22044604925031E-16,0.));
#431=DIRECTION('center_axis',(-2.22044604925031E-16,1.,0.));
#432=DIRECTION('ref_axis',(0.,0.,-1.));
#433=DIRECTION('',(-0.750359462031804,-1.66613270298611E-16,-0.661030012737199));
#434=DIRECTION('center_axis',(-2.22044604925031E-16,1.,0.));
#435=DIRECTION('ref_axis',(0.,0.,-1.));
#436=DIRECTION('center_axis',(-2.22044604925031E-16,1.,0.));
#437=DIRECTION('ref_axis',(0.,0.,-1.));
#438=DIRECTION('center_axis',(-2.22044604925031E-16,1.,0.));
#439=DIRECTION('ref_axis',(0.,0.,1.));
#440=DIRECTION('',(2.22044604925031E-16,-1.,0.));
#441=DIRECTION('',(2.22044604925031E-16,-1.,0.));
#442=DIRECTION('center_axis',(-2.22044604925031E-16,1.,0.));
#443=DIRECTION('ref_axis',(0.,0.,1.));
#444=DIRECTION('',(2.22044604925031E-16,-1.,0.));
#445=DIRECTION('center_axis',(0.661030012737199,1.4677814802182E-16,0.750359462031804));
#446=DIRECTION('ref_axis',(0.750359462031804,1.66613270298611E-16,-0.661030012737199));
#447=DIRECTION('',(2.22044604925031E-16,-1.,0.));
#448=DIRECTION('center_axis',(-2.22044604925031E-16,1.,0.));
#449=DIRECTION('ref_axis',(0.,0.,1.));
#450=DIRECTION('',(2.22044604925031E-16,-1.,0.));
#451=DIRECTION('',(2.22044604925031E-16,-1.,0.));
#452=DIRECTION('center_axis',(0.,0.,1.));
#453=DIRECTION('ref_axis',(-2.22044604925031E-16,1.,0.));
#454=DIRECTION('',(2.22044604925031E-16,-1.,0.));
#455=DIRECTION('center_axis',(-2.22044604925031E-16,1.,0.));
#456=DIRECTION('ref_axis',(0.,0.,1.));
#457=DIRECTION('',(2.22044604925031E-16,-1.,0.));
#458=DIRECTION('',(2.22044604925031E-16,-1.,0.));
#459=DIRECTION('center_axis',(0.,0.,1.));
#460=DIRECTION('ref_axis',(-2.22044604925031E-16,1.,0.));
#461=DIRECTION('center_axis',(0.,0.,-1.));
#462=DIRECTION('ref_axis',(2.22044604925031E-16,-1.,0.));
#463=DIRECTION('',(2.22044604925031E-16,-1.,0.));
#464=DIRECTION('center_axis',(-2.22044604925031E-16,1.,0.));
#465=DIRECTION('ref_axis',(0.,0.,1.));
#466=DIRECTION('',(2.22044604925031E-16,-1.,0.));
#467=DIRECTION('center_axis',(-2.22044604925031E-16,1.,0.));
#468=DIRECTION('ref_axis',(0.,0.,1.));
#469=DIRECTION('',(2.22044604925031E-16,-1.,0.));
#470=DIRECTION('center_axis',(-0.661030012737199,-1.4677814802182E-16,0.750359462031804));
#471=DIRECTION('ref_axis',(0.750359462031804,1.66613270298611E-16,0.661030012737199));
#472=CARTESIAN_POINT('',(0.,0.,0.));
#473=CARTESIAN_POINT('Origin',(0.,0.,-0.2165));
#474=CARTESIAN_POINT('',(2.5,0.,0.));
#475=CARTESIAN_POINT('',(-2.5,-3.06161699786838E-16,1.38777878078145E-16));
#476=CARTESIAN_POINT('Origin',(0.,0.,0.));
#477=CARTESIAN_POINT('Origin',(0.,0.,0.));
#478=CARTESIAN_POINT('',(-2.067,-2.53134493383758E-16,-0.433000000000002));
#479=CARTESIAN_POINT('',(-2.2835,-2.79648096585298E-16,-0.2165));
#480=CARTESIAN_POINT('',(2.067,0.,-0.433));
#481=CARTESIAN_POINT('Origin',(0.,0.,-0.433000000000003));
#482=CARTESIAN_POINT('Origin',(0.,0.,-0.433000000000003));
#483=CARTESIAN_POINT('Origin',(0.,0.,-30.4460577892019));
#484=CARTESIAN_POINT('',(-2.067,-2.53134493383758E-16,-6.8));
#485=CARTESIAN_POINT('',(-2.067,-2.53134493383758E-16,-30.4460577892019));
#486=CARTESIAN_POINT('Origin',(0.,0.,-6.8));
#487=CARTESIAN_POINT('Origin',(-1.99840144432528E-15,9.,-6.1));
#488=CARTESIAN_POINT('',(2.17821147897554,10.0076679774902,-6.8));
#489=CARTESIAN_POINT('',(-2.82522372794072E-15,11.4,-6.8));
#490=CARTESIAN_POINT('Origin',(-1.99840144432528E-15,9.,-6.8));
#491=CARTESIAN_POINT('',(2.17821147897554,7.99233202250979,-6.8));
#492=CARTESIAN_POINT('Ctrl Pts',(2.17821147897553,7.9923320225098,-6.80000000000002));
#493=CARTESIAN_POINT('Ctrl Pts',(2.19749937229727,8.03402542904567,-6.80000000000002));
#494=CARTESIAN_POINT('Ctrl Pts',(2.21565073763732,8.07629651776962,-6.79984078455992));
#495=CARTESIAN_POINT('Ctrl Pts',(2.34576776606662,8.40443988183141,-6.79781872101178));
#496=CARTESIAN_POINT('Ctrl Pts',(2.40207872855209,8.71192772227172,-6.79283315584458));
#497=CARTESIAN_POINT('Ctrl Pts',(2.40207872855209,9.28807227772828,-6.79283315584458));
#498=CARTESIAN_POINT('Ctrl Pts',(2.34576776606662,9.59556011816859,-6.79781872101178));
#499=CARTESIAN_POINT('Ctrl Pts',(2.21565073763732,9.92370348223038,-6.79984078455992));
#500=CARTESIAN_POINT('Ctrl Pts',(2.19749937229728,9.96597457095433,-6.80000000000002));
#501=CARTESIAN_POINT('Ctrl Pts',(2.17821147897553,10.0076679774902,-6.80000000000002));
#502=CARTESIAN_POINT('',(-2.17821147897553,7.99233202250979,-6.8));
#503=CARTESIAN_POINT('Origin',(-1.99840144432528E-15,9.,-6.8));
#504=CARTESIAN_POINT('',(-2.17821147897554,10.0076679774902,-6.8));
#505=CARTESIAN_POINT('Ctrl Pts',(-2.17821147897554,10.0076679774902,-6.8));
#506=CARTESIAN_POINT('Ctrl Pts',(-2.19749937229729,9.96597457095433,-6.8));
#507=CARTESIAN_POINT('Ctrl Pts',(-2.21565073763733,9.92370348223037,-6.7998407845599));
#508=CARTESIAN_POINT('Ctrl Pts',(-2.34576776606663,9.59556011816859,-6.79781872101176));
#509=CARTESIAN_POINT('Ctrl Pts',(-2.4020787285521,9.28807227772828,-6.79283315584455));
#510=CARTESIAN_POINT('Ctrl Pts',(-2.4020787285521,9.,-6.79283315584455));
#511=CARTESIAN_POINT('Ctrl Pts',(-2.4020787285521,8.71192772227172,-6.79283315584455));
#512=CARTESIAN_POINT('Ctrl Pts',(-2.34576776606663,8.40443988183141,-6.79781872101176));
#513=CARTESIAN_POINT('Ctrl Pts',(-2.21565073763733,8.07629651776962,-6.7998407845599));
#514=CARTESIAN_POINT('Ctrl Pts',(-2.19749937229728,8.03402542904566,-6.8));
#515=CARTESIAN_POINT('Ctrl Pts',(-2.17821147897554,7.99233202250979,-6.8));
#516=CARTESIAN_POINT('Origin',(-1.99840144432528E-15,9.,-6.8));
#517=CARTESIAN_POINT('',(-1.99840144432528E-15,9.,-8.6));
#518=CARTESIAN_POINT('Origin',(-1.99840144432528E-15,9.,-6.1));
#519=CARTESIAN_POINT('Origin',(8.50003381803956,15.5,-0.499999999999999));
#520=CARTESIAN_POINT('',(-8.50003381803956,15.5,2.16840434497101E-16));
#521=CARTESIAN_POINT('',(8.50003381803956,15.5,0.));
#522=CARTESIAN_POINT('',(-8.50003381803956,15.5,0.));
#523=CARTESIAN_POINT('',(8.99957278771282,15.5,-0.521466666666666));
#524=CARTESIAN_POINT('Origin',(8.50003381803956,15.5,-0.499999999999999));
#525=CARTESIAN_POINT('',(7.8164050445802,15.5,-2.99745811711131));
#526=CARTESIAN_POINT('Origin',(5.50279999999999,15.5,-0.371199999999998));
#527=CARTESIAN_POINT('',(4.49181652355573,15.5,-5.92625811711131));
#528=CARTESIAN_POINT('',(7.8164050445802,15.5,-2.99745811711131));
#529=CARTESIAN_POINT('',(2.17821147897554,15.5,-6.8));
#530=CARTESIAN_POINT('Origin',(2.17821147897554,15.5,-3.30000000000002));
#531=CARTESIAN_POINT('',(-2.17821147897553,15.5,-6.8));
#532=CARTESIAN_POINT('',(2.17821147897553,15.5,-6.8));
#533=CARTESIAN_POINT('',(-4.49181652355573,15.5,-5.92625811711131));
#534=CARTESIAN_POINT('Origin',(-2.17821147897553,15.5,-3.3));
#535=CARTESIAN_POINT('',(-7.8164050445802,15.5,-2.99745811711132));
#536=CARTESIAN_POINT('',(-4.49181652355573,15.5,-5.92625811711131));
#537=CARTESIAN_POINT('',(-8.99957278771282,15.5,-0.521466666666668));
#538=CARTESIAN_POINT('Origin',(-5.50279999999999,15.5,-0.371199999999997));
#539=CARTESIAN_POINT('Origin',(-8.50003381803956,15.5,-0.499999999999999));
#540=CARTESIAN_POINT('Origin',(8.50003381803956,-7.5,-0.499999999999999));
#541=CARTESIAN_POINT('',(-8.50003381803956,-7.5,2.16840434497101E-16));
#542=CARTESIAN_POINT('',(8.50003381803956,-7.5,0.));
#543=CARTESIAN_POINT('',(-8.50003381803956,-7.5,0.));
#544=CARTESIAN_POINT('',(-8.99957278771282,-7.5,-0.521466666666668));
#545=CARTESIAN_POINT('Origin',(-8.50003381803956,-7.5,-0.499999999999999));
#546=CARTESIAN_POINT('',(-7.8164050445802,-7.5,-2.99745811711132));
#547=CARTESIAN_POINT('Origin',(-5.50279999999999,-7.5,-0.371199999999997));
#548=CARTESIAN_POINT('',(-4.49181652355573,-7.5,-5.92625811711131));
#549=CARTESIAN_POINT('',(-4.49181652355573,-7.5,-5.92625811711131));
#550=CARTESIAN_POINT('',(-2.17821147897553,-7.5,-6.8));
#551=CARTESIAN_POINT('Origin',(-2.17821147897553,-7.5,-3.3));
#552=CARTESIAN_POINT('',(2.17821147897554,-7.5,-6.8));
#553=CARTESIAN_POINT('',(2.17821147897553,-7.5,-6.8));
#554=CARTESIAN_POINT('',(4.49181652355573,-7.5,-5.92625811711131));
#555=CARTESIAN_POINT('Origin',(2.17821147897554,-7.5,-3.30000000000002));
#556=CARTESIAN_POINT('',(7.8164050445802,-7.5,-2.99745811711131));
#557=CARTESIAN_POINT('',(7.8164050445802,-7.5,-2.99745811711131));
#558=CARTESIAN_POINT('',(8.99957278771282,-7.5,-0.521466666666666));
#559=CARTESIAN_POINT('Origin',(5.50279999999999,-7.5,-0.371199999999998));
#560=CARTESIAN_POINT('Origin',(8.50003381803956,-7.5,-0.499999999999999));
#561=CARTESIAN_POINT('Origin',(-8.50003381803956,15.5,-0.499999999999999));
#562=CARTESIAN_POINT('',(-8.50003381803956,15.5,2.16840434497101E-16));
#563=CARTESIAN_POINT('',(-8.99957278771282,15.5,-0.521466666666668));
#564=CARTESIAN_POINT('Origin',(-5.50279999999999,15.5,-0.371199999999997));
#565=CARTESIAN_POINT('',(-7.8164050445802,15.5,-2.99745811711132));
#566=CARTESIAN_POINT('Origin',(-4.49181652355573,15.5,-5.92625811711131));
#567=CARTESIAN_POINT('',(-4.49181652355573,15.5,-5.92625811711131));
#568=CARTESIAN_POINT('Origin',(-2.17821147897553,15.5,-3.3));
#569=CARTESIAN_POINT('',(-2.17821147897553,15.5,-6.8));
#570=CARTESIAN_POINT('',(-2.17821147897553,15.5,-6.8));
#571=CARTESIAN_POINT('Origin',(2.17821147897553,15.5,-6.8));
#572=CARTESIAN_POINT('',(2.17821147897554,15.5,-6.8));
#573=CARTESIAN_POINT('Origin',(2.17821147897554,15.5,-3.30000000000002));
#574=CARTESIAN_POINT('',(2.17821147897554,15.5,-6.8));
#575=CARTESIAN_POINT('',(4.49181652355573,15.5,-5.92625811711131));
#576=CARTESIAN_POINT('Origin',(2.17821147897553,15.5,-6.8));
#577=CARTESIAN_POINT('Origin',(-8.50003381803956,15.5,0.));
#578=CARTESIAN_POINT('',(8.50003381803956,15.5,0.));
#579=CARTESIAN_POINT('Origin',(8.50003381803956,15.5,-0.499999999999999));
#580=CARTESIAN_POINT('',(8.99957278771282,15.5,-0.521466666666666));
#581=CARTESIAN_POINT('Origin',(5.50279999999999,15.5,-0.371199999999998));
#582=CARTESIAN_POINT('',(7.8164050445802,15.5,-2.99745811711131));
#583=CARTESIAN_POINT('Origin',(7.8164050445802,15.5,-2.99745811711131));
#584=UNCERTAINTY_MEASURE_WITH_UNIT(LENGTH_MEASURE(0.01),#588,
'DISTANCE_ACCURACY_VALUE',
'Maximum model space distance between geometric entities at asserted c
onnectivities');
#585=UNCERTAINTY_MEASURE_WITH_UNIT(LENGTH_MEASURE(0.01),#588,
'DISTANCE_ACCURACY_VALUE',
'Maximum model space distance between geometric entities at asserted c
onnectivities');
#586=(
GEOMETRIC_REPRESENTATION_CONTEXT(3)
GLOBAL_UNCERTAINTY_ASSIGNED_CONTEXT((#584))
GLOBAL_UNIT_ASSIGNED_CONTEXT((#588,#590,#591))
REPRESENTATION_CONTEXT('','3D')
);
#587=(
GEOMETRIC_REPRESENTATION_CONTEXT(3)
GLOBAL_UNCERTAINTY_ASSIGNED_CONTEXT((#585))
GLOBAL_UNIT_ASSIGNED_CONTEXT((#588,#590,#591))
REPRESENTATION_CONTEXT('','3D')
);
#588=(
LENGTH_UNIT()
NAMED_UNIT(*)
SI_UNIT(.MILLI.,.METRE.)
);
#589=(
LENGTH_UNIT()
NAMED_UNIT(*)
SI_UNIT(.CENTI.,.METRE.)
);
#590=(
NAMED_UNIT(*)
PLANE_ANGLE_UNIT()
SI_UNIT($,.RADIAN.)
);
#591=(
NAMED_UNIT(*)
SI_UNIT($,.STERADIAN.)
SOLID_ANGLE_UNIT()
);
#592=SHAPE_DEFINITION_REPRESENTATION(#593,#594);
#593=PRODUCT_DEFINITION_SHAPE('',$,#596);
#594=SHAPE_REPRESENTATION('',(#336),#586);
#595=PRODUCT_DEFINITION_CONTEXT('part definition',#600,'design');
#596=PRODUCT_DEFINITION('282200300',
'282200300 Nutenstein schwer mit Federkugel M5 N8',#597,#595);
#597=PRODUCT_DEFINITION_FORMATION('',$,#602);
#598=PRODUCT_RELATED_PRODUCT_CATEGORY(
'282200300 Nutenstein schwer mit Federkugel M5 N8',
'282200300 Nutenstein schwer mit Federkugel M5 N8',(#602));
#599=APPLICATION_PROTOCOL_DEFINITION('international standard',
'automotive_design',2009,#600);
#600=APPLICATION_CONTEXT(
'Core Data for Automotive Mechanical Design Process');
#601=PRODUCT_CONTEXT('part definition',#600,'mechanical');
#602=PRODUCT('282200300',
'282200300 Nutenstein schwer mit Federkugel M5 N8',
'Nutenstein schwer mit Federkugel M5, Nut 8',(#601));
#603=PRESENTATION_STYLE_ASSIGNMENT((#605));
#604=PRESENTATION_STYLE_ASSIGNMENT((#606));
#605=SURFACE_STYLE_USAGE(.BOTH.,#611);
#606=SURFACE_STYLE_USAGE(.BOTH.,#612);
#607=SURFACE_STYLE_RENDERING_WITH_PROPERTIES($,#619,(#609));
#608=SURFACE_STYLE_RENDERING_WITH_PROPERTIES($,#620,(#610));
#609=SURFACE_STYLE_TRANSPARENT(0.);
#610=SURFACE_STYLE_TRANSPARENT(0.);
#611=SURFACE_SIDE_STYLE('',(#613,#607));
#612=SURFACE_SIDE_STYLE('',(#614,#608));
#613=SURFACE_STYLE_FILL_AREA(#615);
#614=SURFACE_STYLE_FILL_AREA(#616);
#615=FILL_AREA_STYLE('',(#617));
#616=FILL_AREA_STYLE('',(#618));
#617=FILL_AREA_STYLE_COLOUR('',#619);
#618=FILL_AREA_STYLE_COLOUR('',#620);
#619=COLOUR_RGB('',0.87843137254902,0.874509803921569,0.858823529411765);
#620=COLOUR_RGB('',0.745098039215686,0.737254901960784,0.729411764705882);
ENDSEC;
END-ISO-10303-21;
